ISO-10303-21;
HEADER;
FILE_DESCRIPTION (( 'STEP AP203' ),
    '1' );
FILE_NAME ('STOIKI.STEP',
    '2025-02-01T05:33:33',
    ( '' ),
    ( '' ),
    'SwSTEP 2.0',
    'SolidWorks 2024',
    '' );
FILE_SCHEMA (( 'CONFIG_CONTROL_DESIGN' ));
ENDSEC;

DATA;
#1 = CARTESIAN_POINT ( 'NONE',  ( -2.499999999999999556, 3.061616997868382648E-16, 0.2000000000000005107 ) ) ;
#2 = EDGE_CURVE ( 'NONE', #255, #219, #62, .T. ) ;
#3 = DIRECTION ( 'NONE',  ( 1.000000000000000000, 0.000000000000000000, 0.000000000000000000 ) ) ;
#4 = EDGE_LOOP ( 'NONE', ( #85, #150, #324, #296 ) ) ;
#5 = PERSON ( 'UNSPECIFIED', 'UNSPECIFIED', 'UNSPECIFIED', ('UNSPECIFIED'), ('UNSPECIFIED'), ('UNSPECIFIED') ) ;
#6 = AXIS2_PLACEMENT_3D ( 'NONE', #110, #40, #3 ) ;
#7 = DIRECTION ( 'NONE',  ( 0.000000000000000000, 0.000000000000000000, -1.000000000000000000 ) ) ;
#8 = APPROVAL_STATUS ( 'not_yet_approved' ) ;
#9 = CARTESIAN_POINT ( 'NONE',  ( -2.299999999999996270, 2.939152317953645626E-16, 0.000000000000000000 ) ) ;
#10 = EDGE_LOOP ( 'NONE', ( #120, #270, #231, #29 ) ) ;
#11 = DIRECTION ( 'NONE',  ( 0.000000000000000000, 0.000000000000000000, 1.000000000000000000 ) ) ;
#12 = APPROVAL ( #126, 'UNSPECIFIED' ) ;
#13 = CARTESIAN_POINT ( 'NONE',  ( 1.149999999999999911, 1.408343819019456028E-16, 10.00000000000000000 ) ) ;
#14 = AXIS2_PLACEMENT_3D ( 'NONE', #88, #327, #162 ) ;
#15 = PLANE ( 'NONE',  #333 ) ;
#16 = DIRECTION ( 'NONE',  ( -0.000000000000000000, -0.000000000000000000, 1.000000000000000000 ) ) ;
#17 = APPROVAL_DATE_TIME ( #254, #251 ) ;
#18 = CARTESIAN_POINT ( 'NONE',  ( 2.300000000000001599, 2.939152317953648092E-16, 10.00000000000000000 ) ) ;
#19 = COORDINATED_UNIVERSAL_TIME_OFFSET ( 2, 0, .AHEAD. ) ;
#20 = AXIS2_PLACEMENT_3D ( 'NONE', #107, #194, #66 ) ;
#21 = DATE_TIME_ROLE ( 'classification_date' ) ;
#22 = DIRECTION ( 'NONE',  ( 0.7071067811865521247, 0.000000000000000000, 0.7071067811865429098 ) ) ;
#23 = PERSON_AND_ORGANIZATION ( #5, #158 ) ;
#24 = DIRECTION ( 'NONE',  ( -0.000000000000000000, -0.000000000000000000, -1.000000000000000000 ) ) ;
#25 = CARTESIAN_POINT ( 'NONE',  ( 0.000000000000000000, 0.000000000000000000, 10.00000000000000000 ) ) ;
#26 = AXIS2_PLACEMENT_3D ( 'NONE', #261, #152, #292 ) ;
#27 = EDGE_CURVE ( 'NONE', #255, #58, #229, .T. ) ;
#28 = VERTEX_POINT ( 'NONE', #323 ) ;
#29 = ORIENTED_EDGE ( 'NONE', *, *, #227, .F. ) ;
#30 = EDGE_LOOP ( 'NONE', ( #207, #154 ) ) ;
#31 = VERTEX_POINT ( 'NONE', #294 ) ;
#32 = DIRECTION ( 'NONE',  ( 1.000000000000000000, 0.000000000000000000, 0.000000000000000000 ) ) ;
#33 = PERSON_AND_ORGANIZATION ( #5, #158 ) ;
#34 = EDGE_CURVE ( 'NONE', #58, #255, #218, .T. ) ;
#35 = CLOSED_SHELL ( 'NONE', ( #69, #259, #176, #160, #287, #179, #108, #133, #325, #113 ) ) ;
#36 = CARTESIAN_POINT ( 'NONE',  ( -2.300000000000001599, 0.000000000000000000, 10.00000000000000000 ) ) ;
#37 = ORIENTED_EDGE ( 'NONE', *, *, #189, .T. ) ;
#38 = PLANE ( 'NONE',  #203 ) ;
#39 = DIRECTION ( 'NONE',  ( 0.000000000000000000, 0.000000000000000000, 1.000000000000000000 ) ) ;
#40 = DIRECTION ( 'NONE',  ( 0.000000000000000000, 0.000000000000000000, -1.000000000000000000 ) ) ;
#41 = AXIS2_PLACEMENT_3D ( 'NONE', #224, #11, #226 ) ;
#42 = CIRCLE ( 'NONE', #326, 2.499999999999999556 ) ;
#43 = CARTESIAN_POINT ( 'NONE',  ( 0.000000000000000000, 0.000000000000000000, 0.2000000000000005107 ) ) ;
#44 = FACE_OUTER_BOUND ( 'NONE', #104, .T. ) ;
#45 = APPROVAL_ROLE ( '' ) ;
#46 = AXIS2_PLACEMENT_3D ( 'NONE', #166, #39, #217 ) ;
#47 = CARTESIAN_POINT ( 'NONE',  ( 0.000000000000000000, 0.000000000000000000, 10.00000000000000000 ) ) ;
#48 = PERSON_AND_ORGANIZATION ( #5, #158 ) ;
#49 = VERTEX_POINT ( 'NONE', #50 ) ;
#50 = CARTESIAN_POINT ( 'NONE',  ( 2.499999999999999556, 3.061616997868382648E-16, 9.800000000000002487 ) ) ;
#51 = CC_DESIGN_PERSON_AND_ORGANIZATION_ASSIGNMENT ( #178, #313, ( #128 ) ) ;
#52 = ADVANCED_BREP_SHAPE_REPRESENTATION ( 'STOIKI', ( #101, #349 ), #146 ) ;
#53 = COORDINATED_UNIVERSAL_TIME_OFFSET ( 2, 0, .AHEAD. ) ;
#54 = EDGE_LOOP ( 'NONE', ( #267, #238, #215, #87 ) ) ;
#55 = CARTESIAN_POINT ( 'NONE',  ( 2.499999999999999556, 0.000000000000000000, 0.2000000000000005107 ) ) ;
#56 = CARTESIAN_POINT ( 'NONE',  ( 0.000000000000000000, 0.000000000000000000, 10.00000000000000000 ) ) ;
#57 = VECTOR ( 'NONE', #340, 1000.000000000000114 ) ;
#58 = VERTEX_POINT ( 'NONE', #344 ) ;
#59 = CC_DESIGN_APPROVAL ( #12, ( #274 ) ) ;
#60 = CYLINDRICAL_SURFACE ( 'NONE', #99, 2.499999999999999556 ) ;
#61 = EDGE_CURVE ( 'NONE', #131, #322, #211, .T. ) ;
#62 = LINE ( 'NONE', #127, #167 ) ;
#63 = CALENDAR_DATE ( 2025, 1, 2 ) ;
#64 = CARTESIAN_POINT ( 'NONE',  ( 0.000000000000000000, 0.000000000000000000, 10.00000000000000000 ) ) ;
#65 = CONICAL_SURFACE ( 'NONE', #173, 2.300000000000001599, 0.7853981633974504994 ) ;
#66 = DIRECTION ( 'NONE',  ( -1.000000000000000000, 0.000000000000000000, 0.000000000000000000 ) ) ;
#67 = LINE ( 'NONE', #89, #91 ) ;
#68 = UNCERTAINTY_MEASURE_WITH_UNIT (LENGTH_MEASURE( 1.000000000000000082E-05 ), #256, 'distance_accuracy_value', 'NONE');
#69 = ADVANCED_FACE ( 'NONE', ( #77 ), #156, .T. ) ;
#70 = CYLINDRICAL_SURFACE ( 'NONE', #144, 1.149999999999999911 ) ;
#71 = CARTESIAN_POINT ( 'NONE',  ( 2.499999999999999556, 3.061616997868382648E-16, 10.00000000000000000 ) ) ;
#72 = VECTOR ( 'NONE', #268, 1000.000000000000114 ) ;
#73 = CALENDAR_DATE ( 2025, 1, 2 ) ;
#74 = DIRECTION ( 'NONE',  ( 1.000000000000000000, 0.000000000000000000, 0.000000000000000000 ) ) ;
#75 = PERSON_AND_ORGANIZATION ( #5, #158 ) ;
#76 = EDGE_CURVE ( 'NONE', #31, #219, #273, .T. ) ;
#77 = FACE_OUTER_BOUND ( 'NONE', #297, .T. ) ;
#78 = PERSON_AND_ORGANIZATION_ROLE ( 'classification_officer' ) ;
#79 = DIRECTION ( 'NONE',  ( -1.000000000000000000, 0.000000000000000000, 0.000000000000000000 ) ) ;
#80 = EDGE_LOOP ( 'NONE', ( #103, #257 ) ) ;
#81 = AXIS2_PLACEMENT_3D ( 'NONE', #56, #159, #318 ) ;
#82 = PERSON_AND_ORGANIZATION_ROLE ( 'creator' ) ;
#83 = EDGE_LOOP ( 'NONE', ( #299, #185, #317, #293 ) ) ;
#84 = ORIENTED_EDGE ( 'NONE', *, *, #34, .T. ) ;
#85 = ORIENTED_EDGE ( 'NONE', *, *, #27, .T. ) ;
#86 = VECTOR ( 'NONE', #137, 1000.000000000000114 ) ;
#87 = ORIENTED_EDGE ( 'NONE', *, *, #148, .F. ) ;
#88 = CARTESIAN_POINT ( 'NONE',  ( 0.000000000000000000, 0.000000000000000000, 0.000000000000000000 ) ) ;
#89 = CARTESIAN_POINT ( 'NONE',  ( -2.499999999999999556, 0.000000000000000000, 10.00000000000000000 ) ) ;
#90 = FACE_OUTER_BOUND ( 'NONE', #4, .T. ) ;
#91 = VECTOR ( 'NONE', #170, 1000.000000000000000 ) ;
#92 = DIRECTION ( 'NONE',  ( -0.000000000000000000, -0.000000000000000000, -1.000000000000000000 ) ) ;
#93 = EDGE_CURVE ( 'NONE', #208, #155, #264, .T. ) ;
#94 = CYLINDRICAL_SURFACE ( 'NONE', #20, 2.499999999999999556 ) ;
#95 = CARTESIAN_POINT ( 'NONE',  ( -2.499999999999999556, 0.000000000000000000, 9.800000000000002487 ) ) ;
#96 = APPROVAL_PERSON_ORGANIZATION ( #262, #139, #222 ) ;
#97 = DIRECTION ( 'NONE',  ( 0.000000000000000000, 0.000000000000000000, 1.000000000000000000 ) ) ;
#98 = FACE_BOUND ( 'NONE', #80, .T. ) ;
#99 = AXIS2_PLACEMENT_3D ( 'NONE', #64, #112, #136 ) ;
#100 = AXIS2_PLACEMENT_3D ( 'NONE', #249, #142, #180 ) ;
#101 = MANIFOLD_SOLID_BREP ( 'Chamfer1', #35 ) ;
#102 = CC_DESIGN_PERSON_AND_ORGANIZATION_ASSIGNMENT ( #75, #258, ( #147 ) ) ;
#103 = ORIENTED_EDGE ( 'NONE', *, *, #27, .F. ) ;
#104 = EDGE_LOOP ( 'NONE', ( #188, #37 ) ) ;
#105 = DIRECTION ( 'NONE',  ( 1.000000000000000000, 0.000000000000000000, 0.000000000000000000 ) ) ;
#106 = ORIENTED_EDGE ( 'NONE', *, *, #168, .F. ) ;
#107 = CARTESIAN_POINT ( 'NONE',  ( 0.000000000000000000, 0.000000000000000000, 10.00000000000000000 ) ) ;
#108 = ADVANCED_FACE ( 'NONE', ( #306 ), #60, .T. ) ;
#109 = DATE_TIME_ROLE ( 'creation_date' ) ;
#110 = CARTESIAN_POINT ( 'NONE',  ( 0.000000000000000000, 0.000000000000000000, 9.800000000000002487 ) ) ;
#111 = ORIENTED_EDGE ( 'NONE', *, *, #236, .F. ) ;
#112 = DIRECTION ( 'NONE',  ( -0.000000000000000000, -0.000000000000000000, -1.000000000000000000 ) ) ;
#113 = ADVANCED_FACE ( 'NONE', ( #242 ), #65, .T. ) ;
#114 = AXIS2_PLACEMENT_3D ( 'NONE', #191, #92, #246 ) ;
#115 = CARTESIAN_POINT ( 'NONE',  ( 0.000000000000000000, 0.000000000000000000, 0.000000000000000000 ) ) ;
#116 = CARTESIAN_POINT ( 'NONE',  ( -2.499999999999999556, 0.000000000000000000, 0.2000000000000005107 ) ) ;
#117 = DIRECTION ( 'NONE',  ( 0.000000000000000000, 0.000000000000000000, 1.000000000000000000 ) ) ;
#118 = CARTESIAN_POINT ( 'NONE',  ( 2.300000000000001599, 2.816687638038914521E-16, 10.00000000000000000 ) ) ;
#119 = LINE ( 'NONE', #118, #57 ) ;
#120 = ORIENTED_EDGE ( 'NONE', *, *, #61, .F. ) ;
#121 = EDGE_CURVE ( 'NONE', #219, #31, #302, .T. ) ;
#122 = VECTOR ( 'NONE', #286, 1000.000000000000000 ) ;
#123 = CC_DESIGN_PERSON_AND_ORGANIZATION_ASSIGNMENT ( #260, #78, ( #274 ) ) ;
#124 = APPROVAL_DATE_TIME ( #149, #139 ) ;
#125 = CC_DESIGN_APPROVAL ( #139, ( #147 ) ) ;
#126 = APPROVAL_STATUS ( 'not_yet_approved' ) ;
#127 = CARTESIAN_POINT ( 'NONE',  ( -1.149999999999999911, 0.000000000000000000, 10.00000000000000000 ) ) ;
#128 = PRODUCT ( 'STOIKI', 'STOIKI', '', ( #141 ) ) ;
#129 = ORIENTED_EDGE ( 'NONE', *, *, #93, .F. ) ;
#130 = CONICAL_SURFACE ( 'NONE', #100, 2.499999999999999556, 0.7853981633974548293 ) ;
#131 = VERTEX_POINT ( 'NONE', #9 ) ;
#132 = EDGE_LOOP ( 'NONE', ( #135, #263, #153, #216 ) ) ;
#133 = ADVANCED_FACE ( 'NONE', ( #172 ), #70, .F. ) ;
#134 = FACE_BOUND ( 'NONE', #30, .T. ) ;
#135 = ORIENTED_EDGE ( 'NONE', *, *, #236, .T. ) ;
#136 = DIRECTION ( 'NONE',  ( -1.000000000000000000, 0.000000000000000000, 0.000000000000000000 ) ) ;
#137 = DIRECTION ( 'NONE',  ( -0.7071067811865490160, 0.000000000000000000, -0.7071067811865460184 ) ) ;
#138 = FACE_OUTER_BOUND ( 'NONE', #164, .T. ) ;
#139 = APPROVAL ( #8, 'UNSPECIFIED' ) ;
#140 = LOCAL_TIME ( 7, 33, 33.00000000000000000, #145 ) ;
#141 = MECHANICAL_CONTEXT ( 'NONE', #171, 'mechanical' ) ;
#142 = DIRECTION ( 'NONE',  ( -0.000000000000000000, -0.000000000000000000, 1.000000000000000000 ) ) ;
#143 = DIRECTION ( 'NONE',  ( -0.000000000000000000, -0.000000000000000000, 1.000000000000000000 ) ) ;
#144 = AXIS2_PLACEMENT_3D ( 'NONE', #244, #298, #223 ) ;
#145 = COORDINATED_UNIVERSAL_TIME_OFFSET ( 2, 0, .AHEAD. ) ;
#146 =( GEOMETRIC_REPRESENTATION_CONTEXT ( 3 ) GLOBAL_UNCERTAINTY_ASSIGNED_CONTEXT ( ( #68 ) ) GLOBAL_UNIT_ASSIGNED_CONTEXT ( ( #256, #282, #310 ) ) REPRESENTATION_CONTEXT ( 'NONE', 'WORKASPACE' ) );
#147 = PRODUCT_DEFINITION_FORMATION_WITH_SPECIFIED_SOURCE ( 'ANY', '', #128, .NOT_KNOWN. ) ;
#148 = EDGE_CURVE ( 'NONE', #49, #334, #341, .T. ) ;
#149 = DATE_AND_TIME ( #186, #335 ) ;
#150 = ORIENTED_EDGE ( 'NONE', *, *, #168, .T. ) ;
#151 = COORDINATED_UNIVERSAL_TIME_OFFSET ( 2, 0, .AHEAD. ) ;
#152 = DIRECTION ( 'NONE',  ( 0.000000000000000000, 0.000000000000000000, 1.000000000000000000 ) ) ;
#153 = ORIENTED_EDGE ( 'NONE', *, *, #319, .T. ) ;
#154 = ORIENTED_EDGE ( 'NONE', *, *, #76, .T. ) ;
#155 = VERTEX_POINT ( 'NONE', #331 ) ;
#156 = CONICAL_SURFACE ( 'NONE', #265, 2.300000000000001599, 0.7853981633974504994 ) ;
#157 = EDGE_LOOP ( 'NONE', ( #187, #163, #161, #129 ) ) ;
#158 = ORGANIZATION ( 'UNSPECIFIED', 'UNSPECIFIED', '' ) ;
#159 = DIRECTION ( 'NONE',  ( 0.000000000000000000, 0.000000000000000000, 1.000000000000000000 ) ) ;
#160 = ADVANCED_FACE ( 'NONE', ( #278 ), #94, .T. ) ;
#161 = ORIENTED_EDGE ( 'NONE', *, *, #319, .F. ) ;
#162 = DIRECTION ( 'NONE',  ( 1.000000000000000000, 0.000000000000000000, 0.000000000000000000 ) ) ;
#163 = ORIENTED_EDGE ( 'NONE', *, *, #61, .T. ) ;
#164 = EDGE_LOOP ( 'NONE', ( #193, #320 ) ) ;
#165 = PERSON_AND_ORGANIZATION_ROLE ( 'design_supplier' ) ;
#166 = CARTESIAN_POINT ( 'NONE',  ( 0.000000000000000000, 0.000000000000000000, 10.00000000000000000 ) ) ;
#167 = VECTOR ( 'NONE', #24, 1000.000000000000000 ) ;
#168 = EDGE_CURVE ( 'NONE', #58, #31, #305, .T. ) ;
#169 = DIRECTION ( 'NONE',  ( -0.000000000000000000, -0.000000000000000000, -1.000000000000000000 ) ) ;
#170 = DIRECTION ( 'NONE',  ( -0.000000000000000000, -0.000000000000000000, -1.000000000000000000 ) ) ;
#171 = APPLICATION_CONTEXT ( 'configuration controlled 3d designs of mechanical parts and assemblies' ) ;
#172 = FACE_OUTER_BOUND ( 'NONE', #328, .T. ) ;
#173 = AXIS2_PLACEMENT_3D ( 'NONE', #201, #7, #275 ) ;
#174 = CIRCLE ( 'NONE', #46, 2.300000000000001599 ) ;
#175 = DIRECTION ( 'NONE',  ( 1.000000000000000000, 0.000000000000000000, -0.000000000000000000 ) ) ;
#176 = ADVANCED_FACE ( 'NONE', ( #90 ), #332, .F. ) ;
#177 = DIRECTION ( 'NONE',  ( 1.000000000000000000, 0.000000000000000000, 0.000000000000000000 ) ) ;
#178 = PERSON_AND_ORGANIZATION ( #5, #158 ) ;
#179 = ADVANCED_FACE ( 'NONE', ( #138, #134 ), #38, .F. ) ;
#180 = DIRECTION ( 'NONE',  ( 1.000000000000000000, 0.000000000000000000, 0.000000000000000000 ) ) ;
#181 = CIRCLE ( 'NONE', #266, 2.499999999999999556 ) ;
#182 = CARTESIAN_POINT ( 'NONE',  ( 0.000000000000000000, 0.000000000000000000, 10.00000000000000000 ) ) ;
#183 = COORDINATED_UNIVERSAL_TIME_OFFSET ( 2, 0, .AHEAD. ) ;
#184 = DIRECTION ( 'NONE',  ( 0.000000000000000000, 0.000000000000000000, -1.000000000000000000 ) ) ;
#185 = ORIENTED_EDGE ( 'NONE', *, *, #148, .T. ) ;
#186 = CALENDAR_DATE ( 2025, 1, 2 ) ;
#187 = ORIENTED_EDGE ( 'NONE', *, *, #202, .F. ) ;
#188 = ORIENTED_EDGE ( 'NONE', *, *, #346, .T. ) ;
#189 = EDGE_CURVE ( 'NONE', #288, #28, #174, .T. ) ;
#190 = CC_DESIGN_APPROVAL ( #251, ( #220 ) ) ;
#191 = CARTESIAN_POINT ( 'NONE',  ( 0.000000000000000000, 0.000000000000000000, 10.00000000000000000 ) ) ;
#192 = CC_DESIGN_SECURITY_CLASSIFICATION ( #274, ( #147 ) ) ;
#193 = ORIENTED_EDGE ( 'NONE', *, *, #276, .T. ) ;
#194 = DIRECTION ( 'NONE',  ( -0.000000000000000000, -0.000000000000000000, -1.000000000000000000 ) ) ;
#195 = CC_DESIGN_DATE_AND_TIME_ASSIGNMENT ( #289, #109, ( #220 ) ) ;
#196 = DIRECTION ( 'NONE',  ( 0.000000000000000000, 0.000000000000000000, 1.000000000000000000 ) ) ;
#197 = CC_DESIGN_PERSON_AND_ORGANIZATION_ASSIGNMENT ( #23, #165, ( #147 ) ) ;
#198 = CIRCLE ( 'NONE', #279, 2.299999999999996270 ) ;
#199 = CARTESIAN_POINT ( 'NONE',  ( 2.299999999999996270, 0.000000000000000000, 0.000000000000000000 ) ) ;
#200 = APPROVAL_PERSON_ORGANIZATION ( #33, #12, #234 ) ;
#201 = CARTESIAN_POINT ( 'NONE',  ( 0.000000000000000000, 0.000000000000000000, 10.00000000000000000 ) ) ;
#202 = EDGE_CURVE ( 'NONE', #131, #208, #303, .T. ) ;
#203 = AXIS2_PLACEMENT_3D ( 'NONE', #115, #196, #336 ) ;
#204 = APPLICATION_PROTOCOL_DEFINITION ( 'international standard', 'config_control_design', 1994, #171 ) ;
#205 = LINE ( 'NONE', #71, #122 ) ;
#206 = LOCAL_TIME ( 7, 33, 33.00000000000000000, #19 ) ;
#207 = ORIENTED_EDGE ( 'NONE', *, *, #121, .T. ) ;
#208 = VERTEX_POINT ( 'NONE', #199 ) ;
#209 = APPLICATION_CONTEXT ( 'configuration controlled 3d designs of mechanical parts and assemblies' ) ;
#210 = CALENDAR_DATE ( 2025, 1, 2 ) ;
#211 = LINE ( 'NONE', #1, #72 ) ;
#212 = APPROVAL_DATE_TIME ( #271, #12 ) ;
#213 = EDGE_CURVE ( 'NONE', #28, #334, #221, .T. ) ;
#214 = ORIENTED_EDGE ( 'NONE', *, *, #76, .F. ) ;
#215 = ORIENTED_EDGE ( 'NONE', *, *, #213, .T. ) ;
#216 = ORIENTED_EDGE ( 'NONE', *, *, #247, .F. ) ;
#217 = DIRECTION ( 'NONE',  ( 1.000000000000000000, 0.000000000000000000, 0.000000000000000000 ) ) ;
#218 = CIRCLE ( 'NONE', #81, 1.149999999999999911 ) ;
#219 = VERTEX_POINT ( 'NONE', #272 ) ;
#220 = PRODUCT_DEFINITION ( 'UNKNOWN', '', #147, #307 ) ;
#221 = LINE ( 'NONE', #36, #86 ) ;
#222 = APPROVAL_ROLE ( '' ) ;
#223 = DIRECTION ( 'NONE',  ( -1.000000000000000000, 0.000000000000000000, 0.000000000000000000 ) ) ;
#224 = CARTESIAN_POINT ( 'NONE',  ( 0.000000000000000000, 0.000000000000000000, 0.000000000000000000 ) ) ;
#225 = AXIS2_PLACEMENT_3D ( 'NONE', #269, #301, #32 ) ;
#226 = DIRECTION ( 'NONE',  ( 1.000000000000000000, 0.000000000000000000, 0.000000000000000000 ) ) ;
#227 = EDGE_CURVE ( 'NONE', #322, #155, #239, .T. ) ;
#228 = CARTESIAN_POINT ( 'NONE',  ( 0.000000000000000000, 0.000000000000000000, 0.000000000000000000 ) ) ;
#229 = CIRCLE ( 'NONE', #314, 1.149999999999999911 ) ;
#230 = APPLICATION_PROTOCOL_DEFINITION ( 'international standard', 'config_control_design', 1994, #209 ) ;
#231 = ORIENTED_EDGE ( 'NONE', *, *, #93, .T. ) ;
#232 = DIRECTION ( 'NONE',  ( 0.000000000000000000, 0.000000000000000000, 1.000000000000000000 ) ) ;
#233 = VECTOR ( 'NONE', #169, 1000.000000000000000 ) ;
#234 = APPROVAL_ROLE ( '' ) ;
#235 = LOCAL_TIME ( 7, 33, 33.00000000000000000, #53 ) ;
#236 = EDGE_CURVE ( 'NONE', #334, #49, #181, .T. ) ;
#237 = CALENDAR_DATE ( 2025, 1, 2 ) ;
#238 = ORIENTED_EDGE ( 'NONE', *, *, #346, .F. ) ;
#239 = CIRCLE ( 'NONE', #225, 2.499999999999999556 ) ;
#240 = DIRECTION ( 'NONE',  ( 0.000000000000000000, 0.000000000000000000, 1.000000000000000000 ) ) ;
#241 = ORIENTED_EDGE ( 'NONE', *, *, #189, .F. ) ;
#242 = FACE_OUTER_BOUND ( 'NONE', #54, .T. ) ;
#243 = CARTESIAN_POINT ( 'NONE',  ( 0.000000000000000000, 0.000000000000000000, 9.800000000000002487 ) ) ;
#244 = CARTESIAN_POINT ( 'NONE',  ( 0.000000000000000000, 0.000000000000000000, 10.00000000000000000 ) ) ;
#245 = DIRECTION ( 'NONE',  ( 0.000000000000000000, 0.000000000000000000, -1.000000000000000000 ) ) ;
#246 = DIRECTION ( 'NONE',  ( -1.000000000000000000, 0.000000000000000000, 0.000000000000000000 ) ) ;
#247 = EDGE_CURVE ( 'NONE', #334, #322, #67, .T. ) ;
#248 = CONICAL_SURFACE ( 'NONE', #315, 2.499999999999999556, 0.7853981633974548293 ) ;
#249 = CARTESIAN_POINT ( 'NONE',  ( 0.000000000000000000, 0.000000000000000000, 0.2000000000000005107 ) ) ;
#250 = CARTESIAN_POINT ( 'NONE',  ( 0.000000000000000000, 0.000000000000000000, 0.2000000000000005107 ) ) ;
#251 = APPROVAL ( #283, 'UNSPECIFIED' ) ;
#252 = DIRECTION ( 'NONE',  ( -0.000000000000000000, -0.000000000000000000, -1.000000000000000000 ) ) ;
#253 = CC_DESIGN_DATE_AND_TIME_ASSIGNMENT ( #291, #21, ( #274 ) ) ;
#254 = DATE_AND_TIME ( #73, #140 ) ;
#255 = VERTEX_POINT ( 'NONE', #277 ) ;
#256 =( LENGTH_UNIT ( ) NAMED_UNIT ( * ) SI_UNIT ( .MILLI., .METRE. ) );
#257 = ORIENTED_EDGE ( 'NONE', *, *, #34, .F. ) ;
#258 = PERSON_AND_ORGANIZATION_ROLE ( 'creator' ) ;
#259 = ADVANCED_FACE ( 'NONE', ( #300 ), #130, .T. ) ;
#260 = PERSON_AND_ORGANIZATION ( #5, #158 ) ;
#261 = CARTESIAN_POINT ( 'NONE',  ( 0.000000000000000000, 0.000000000000000000, 0.000000000000000000 ) ) ;
#262 = PERSON_AND_ORGANIZATION ( #5, #158 ) ;
#263 = ORIENTED_EDGE ( 'NONE', *, *, #304, .T. ) ;
#264 = LINE ( 'NONE', #55, #309 ) ;
#265 = AXIS2_PLACEMENT_3D ( 'NONE', #321, #184, #79 ) ;
#266 = AXIS2_PLACEMENT_3D ( 'NONE', #243, #245, #329 ) ;
#267 = ORIENTED_EDGE ( 'NONE', *, *, #281, .F. ) ;
#268 = DIRECTION ( 'NONE',  ( -0.7071067811865521247, 8.659560562354989558E-17, 0.7071067811865429098 ) ) ;
#269 = CARTESIAN_POINT ( 'NONE',  ( 0.000000000000000000, 0.000000000000000000, 0.2000000000000005107 ) ) ;
#270 = ORIENTED_EDGE ( 'NONE', *, *, #276, .F. ) ;
#271 = DATE_AND_TIME ( #210, #206 ) ;
#272 = CARTESIAN_POINT ( 'NONE',  ( -1.149999999999999911, 0.000000000000000000, 0.000000000000000000 ) ) ;
#273 = CIRCLE ( 'NONE', #26, 1.149999999999999911 ) ;
#274 = SECURITY_CLASSIFICATION ( '', '', #330 ) ;
#275 = DIRECTION ( 'NONE',  ( -1.000000000000000000, 0.000000000000000000, 0.000000000000000000 ) ) ;
#276 = EDGE_CURVE ( 'NONE', #208, #131, #198, .T. ) ;
#277 = CARTESIAN_POINT ( 'NONE',  ( -1.149999999999999911, 0.000000000000000000, 10.00000000000000000 ) ) ;
#278 = FACE_OUTER_BOUND ( 'NONE', #132, .T. ) ;
#279 = AXIS2_PLACEMENT_3D ( 'NONE', #228, #252, #74 ) ;
#280 = DIRECTION ( 'NONE',  ( 1.000000000000000000, 0.000000000000000000, 0.000000000000000000 ) ) ;
#281 = EDGE_CURVE ( 'NONE', #288, #49, #119, .T. ) ;
#282 =( NAMED_UNIT ( * ) PLANE_ANGLE_UNIT ( ) SI_UNIT ( $, .RADIAN. ) );
#283 = APPROVAL_STATUS ( 'not_yet_approved' ) ;
#284 = ORIENTED_EDGE ( 'NONE', *, *, #213, .F. ) ;
#285 = CIRCLE ( 'NONE', #295, 2.300000000000001599 ) ;
#286 = DIRECTION ( 'NONE',  ( -0.000000000000000000, -0.000000000000000000, -1.000000000000000000 ) ) ;
#287 = ADVANCED_FACE ( 'NONE', ( #44, #98 ), #15, .T. ) ;
#288 = VERTEX_POINT ( 'NONE', #18 ) ;
#289 = DATE_AND_TIME ( #63, #235 ) ;
#290 = ORIENTED_EDGE ( 'NONE', *, *, #2, .T. ) ;
#291 = DATE_AND_TIME ( #237, #345 ) ;
#292 = DIRECTION ( 'NONE',  ( 1.000000000000000000, 0.000000000000000000, 0.000000000000000000 ) ) ;
#293 = ORIENTED_EDGE ( 'NONE', *, *, #227, .T. ) ;
#294 = CARTESIAN_POINT ( 'NONE',  ( 1.149999999999999911, 1.408343819019456028E-16, 0.000000000000000000 ) ) ;
#295 = AXIS2_PLACEMENT_3D ( 'NONE', #47, #232, #177 ) ;
#296 = ORIENTED_EDGE ( 'NONE', *, *, #2, .F. ) ;
#297 = EDGE_LOOP ( 'NONE', ( #241, #311, #111, #284 ) ) ;
#298 = DIRECTION ( 'NONE',  ( -0.000000000000000000, -0.000000000000000000, -1.000000000000000000 ) ) ;
#299 = ORIENTED_EDGE ( 'NONE', *, *, #304, .F. ) ;
#300 = FACE_OUTER_BOUND ( 'NONE', #157, .T. ) ;
#301 = DIRECTION ( 'NONE',  ( -0.000000000000000000, -0.000000000000000000, 1.000000000000000000 ) ) ;
#302 = CIRCLE ( 'NONE', #41, 1.149999999999999911 ) ;
#303 = CIRCLE ( 'NONE', #14, 2.299999999999996270 ) ;
#304 = EDGE_CURVE ( 'NONE', #49, #155, #205, .T. ) ;
#305 = LINE ( 'NONE', #13, #233 ) ;
#306 = FACE_OUTER_BOUND ( 'NONE', #83, .T. ) ;
#307 = DESIGN_CONTEXT ( 'detailed design', #209, 'design' ) ;
#308 = PERSON_AND_ORGANIZATION ( #5, #158 ) ;
#309 = VECTOR ( 'NONE', #22, 1000.000000000000114 ) ;
#310 =( NAMED_UNIT ( * ) SI_UNIT ( $, .STERADIAN. ) SOLID_ANGLE_UNIT ( ) );
#311 = ORIENTED_EDGE ( 'NONE', *, *, #281, .T. ) ;
#312 = DIRECTION ( 'NONE',  ( 1.000000000000000000, 0.000000000000000000, 0.000000000000000000 ) ) ;
#313 = PERSON_AND_ORGANIZATION_ROLE ( 'design_owner' ) ;
#314 = AXIS2_PLACEMENT_3D ( 'NONE', #25, #240, #105 ) ;
#315 = AXIS2_PLACEMENT_3D ( 'NONE', #250, #143, #338 ) ;
#316 = FACE_OUTER_BOUND ( 'NONE', #10, .T. ) ;
#317 = ORIENTED_EDGE ( 'NONE', *, *, #247, .T. ) ;
#318 = DIRECTION ( 'NONE',  ( 1.000000000000000000, 0.000000000000000000, 0.000000000000000000 ) ) ;
#319 = EDGE_CURVE ( 'NONE', #155, #322, #42, .T. ) ;
#320 = ORIENTED_EDGE ( 'NONE', *, *, #202, .T. ) ;
#321 = CARTESIAN_POINT ( 'NONE',  ( 0.000000000000000000, 0.000000000000000000, 10.00000000000000000 ) ) ;
#322 = VERTEX_POINT ( 'NONE', #116 ) ;
#323 = CARTESIAN_POINT ( 'NONE',  ( -2.300000000000001599, 0.000000000000000000, 10.00000000000000000 ) ) ;
#324 = ORIENTED_EDGE ( 'NONE', *, *, #121, .F. ) ;
#325 = ADVANCED_FACE ( 'NONE', ( #316 ), #248, .T. ) ;
#326 = AXIS2_PLACEMENT_3D ( 'NONE', #43, #16, #280 ) ;
#327 = DIRECTION ( 'NONE',  ( -0.000000000000000000, -0.000000000000000000, -1.000000000000000000 ) ) ;
#328 = EDGE_LOOP ( 'NONE', ( #106, #84, #290, #214 ) ) ;
#329 = DIRECTION ( 'NONE',  ( 1.000000000000000000, 0.000000000000000000, 0.000000000000000000 ) ) ;
#330 = SECURITY_CLASSIFICATION_LEVEL ( 'unclassified' ) ;
#331 = CARTESIAN_POINT ( 'NONE',  ( 2.499999999999999556, 3.061616997868382648E-16, 0.2000000000000005107 ) ) ;
#332 = CYLINDRICAL_SURFACE ( 'NONE', #114, 1.149999999999999911 ) ;
#333 = AXIS2_PLACEMENT_3D ( 'NONE', #182, #117, #175 ) ;
#334 = VERTEX_POINT ( 'NONE', #95 ) ;
#335 = LOCAL_TIME ( 7, 33, 33.00000000000000000, #151 ) ;
#336 = DIRECTION ( 'NONE',  ( 1.000000000000000000, 0.000000000000000000, -0.000000000000000000 ) ) ;
#337 = CC_DESIGN_PERSON_AND_ORGANIZATION_ASSIGNMENT ( #48, #82, ( #220 ) ) ;
#338 = DIRECTION ( 'NONE',  ( 1.000000000000000000, 0.000000000000000000, 0.000000000000000000 ) ) ;
#339 = CARTESIAN_POINT ( 'NONE',  ( 0.000000000000000000, 0.000000000000000000, 0.000000000000000000 ) ) ;
#340 = DIRECTION ( 'NONE',  ( 0.7071067811865490160, 8.659560562354952580E-17, -0.7071067811865460184 ) ) ;
#341 = CIRCLE ( 'NONE', #6, 2.499999999999999556 ) ;
#342 = PRODUCT_RELATED_PRODUCT_CATEGORY ( 'detail', '', ( #128 ) ) ;
#343 = APPROVAL_PERSON_ORGANIZATION ( #308, #251, #45 ) ;
#344 = CARTESIAN_POINT ( 'NONE',  ( 1.149999999999999911, 1.408343819019456028E-16, 10.00000000000000000 ) ) ;
#345 = LOCAL_TIME ( 7, 33, 33.00000000000000000, #183 ) ;
#346 = EDGE_CURVE ( 'NONE', #28, #288, #285, .T. ) ;
#347 = SHAPE_DEFINITION_REPRESENTATION ( #348, #52 ) ;
#348 = PRODUCT_DEFINITION_SHAPE ( 'NONE', 'NONE',  #220 ) ;
#349 = AXIS2_PLACEMENT_3D ( 'NONE', #339, #97, #312 ) ;
ENDSEC;
END-ISO-10303-21;
