ISO-10303-21;
HEADER;
FILE_DESCRIPTION (( 'STEP AP203' ),
    '1' );
FILE_NAME ('STOIKI-6.STEP',
    '2025-02-01T19:17:01',
    ( '' ),
    ( '' ),
    'SwSTEP 2.0',
    'SolidWorks 2024',
    '' );
FILE_SCHEMA (( 'CONFIG_CONTROL_DESIGN' ));
ENDSEC;

DATA;
#1 = PERSON ( 'UNSPECIFIED', 'UNSPECIFIED', 'UNSPECIFIED', ('UNSPECIFIED'), ('UNSPECIFIED'), ('UNSPECIFIED') ) ;
#2 = DIRECTION ( 'NONE',  ( -0.000000000000000000, -0.000000000000000000, -1.000000000000000000 ) ) ;
#3 = VERTEX_POINT ( 'NONE', #263 ) ;
#4 = AXIS2_PLACEMENT_3D ( 'NONE', #133, #106, #231 ) ;
#5 = DIRECTION ( 'NONE',  ( 0.000000000000000000, 0.000000000000000000, 1.000000000000000000 ) ) ;
#6 = ORIENTED_EDGE ( 'NONE', *, *, #20, .F. ) ;
#7 = SHAPE_DEFINITION_REPRESENTATION ( #324, #290 ) ;
#8 = EDGE_LOOP ( 'NONE', ( #67, #251, #270, #40 ) ) ;
#9 = APPLICATION_PROTOCOL_DEFINITION ( 'international standard', 'config_control_design', 1994, #285 ) ;
#10 = VERTEX_POINT ( 'NONE', #311 ) ;
#11 = CLOSED_SHELL ( 'NONE', ( #179, #333, #320, #183, #240, #210, #235, #103, #56, #280 ) ) ;
#12 = APPROVAL_STATUS ( 'not_yet_approved' ) ;
#13 = VERTEX_POINT ( 'NONE', #184 ) ;
#14 = SECURITY_CLASSIFICATION_LEVEL ( 'unclassified' ) ;
#15 = AXIS2_PLACEMENT_3D ( 'NONE', #239, #155, #205 ) ;
#16 = VECTOR ( 'NONE', #49, 1000.000000000000114 ) ;
#17 = AXIS2_PLACEMENT_3D ( 'NONE', #200, #227, #101 ) ;
#18 = CARTESIAN_POINT ( 'NONE',  ( 0.000000000000000000, 0.000000000000000000, 0.000000000000000000 ) ) ;
#19 = DIRECTION ( 'NONE',  ( 1.000000000000000000, 0.000000000000000000, 0.000000000000000000 ) ) ;
#20 = EDGE_CURVE ( 'NONE', #3, #275, #281, .T. ) ;
#21 = CARTESIAN_POINT ( 'NONE',  ( 2.499999999999999556, 3.061616997868382648E-16, 0.2000000000000005107 ) ) ;
#22 = AXIS2_PLACEMENT_3D ( 'NONE', #336, #234, #131 ) ;
#23 = CARTESIAN_POINT ( 'NONE',  ( -2.299999999999999822, 0.000000000000000000, 6.000000000000000000 ) ) ;
#24 =( NAMED_UNIT ( * ) PLANE_ANGLE_UNIT ( ) SI_UNIT ( $, .RADIAN. ) );
#25 = MANIFOLD_SOLID_BREP ( 'Chamfer1', #11 ) ;
#26 = DIRECTION ( 'NONE',  ( -0.000000000000000000, -0.000000000000000000, 1.000000000000000000 ) ) ;
#27 = AXIS2_PLACEMENT_3D ( 'NONE', #87, #26, #136 ) ;
#28 = DIRECTION ( 'NONE',  ( -0.000000000000000000, -0.000000000000000000, -1.000000000000000000 ) ) ;
#29 = CARTESIAN_POINT ( 'NONE',  ( 0.000000000000000000, 0.000000000000000000, 6.000000000000000000 ) ) ;
#30 = CC_DESIGN_PERSON_AND_ORGANIZATION_ASSIGNMENT ( #230, #97, ( #169 ) ) ;
#31 = ORIENTED_EDGE ( 'NONE', *, *, #258, .F. ) ;
#32 = FACE_BOUND ( 'NONE', #329, .T. ) ;
#33 = ORIENTED_EDGE ( 'NONE', *, *, #172, .T. ) ;
#34 = DATE_TIME_ROLE ( 'creation_date' ) ;
#35 = EDGE_LOOP ( 'NONE', ( #253, #142, #93, #31 ) ) ;
#36 = EDGE_CURVE ( 'NONE', #144, #3, #48, .T. ) ;
#37 = COORDINATED_UNIVERSAL_TIME_OFFSET ( 2, 0, .AHEAD. ) ;
#38 = ORIENTED_EDGE ( 'NONE', *, *, #267, .F. ) ;
#39 = PERSON_AND_ORGANIZATION_ROLE ( 'creator' ) ;
#40 = ORIENTED_EDGE ( 'NONE', *, *, #172, .F. ) ;
#41 =( GEOMETRIC_REPRESENTATION_CONTEXT ( 3 ) GLOBAL_UNCERTAINTY_ASSIGNED_CONTEXT ( ( #108 ) ) GLOBAL_UNIT_ASSIGNED_CONTEXT ( ( #246, #24, #43 ) ) REPRESENTATION_CONTEXT ( 'NONE', 'WORKASPACE' ) );
#42 = APPROVAL_STATUS ( 'not_yet_approved' ) ;
#43 =( NAMED_UNIT ( * ) SI_UNIT ( $, .STERADIAN. ) SOLID_ANGLE_UNIT ( ) );
#44 = DIRECTION ( 'NONE',  ( -0.000000000000000000, -0.000000000000000000, -1.000000000000000000 ) ) ;
#45 = EDGE_CURVE ( 'NONE', #165, #10, #80, .T. ) ;
#46 = CARTESIAN_POINT ( 'NONE',  ( 2.299999999999999822, 2.816687638038912056E-16, 6.000000000000000000 ) ) ;
#47 = DESIGN_CONTEXT ( 'detailed design', #285, 'design' ) ;
#48 = LINE ( 'NONE', #23, #295 ) ;
#49 = DIRECTION ( 'NONE',  ( -0.7071067811865489050, 8.659560562354951347E-17, 0.7071067811865460184 ) ) ;
#50 = VECTOR ( 'NONE', #28, 1000.000000000000000 ) ;
#51 = AXIS2_PLACEMENT_3D ( 'NONE', #29, #349, #322 ) ;
#52 = CYLINDRICAL_SURFACE ( 'NONE', #15, 1.350000000000000089 ) ;
#53 = DIRECTION ( 'NONE',  ( 0.000000000000000000, 0.000000000000000000, -1.000000000000000000 ) ) ;
#54 = DIRECTION ( 'NONE',  ( 1.000000000000000000, 0.000000000000000000, -0.000000000000000000 ) ) ;
#55 = CONICAL_SURFACE ( 'NONE', #312, 2.299999999999999822, 0.7853981633974461696 ) ;
#56 = ADVANCED_FACE ( 'NONE', ( #182 ), #302, .T. ) ;
#57 = FACE_OUTER_BOUND ( 'NONE', #198, .T. ) ;
#58 = ORIENTED_EDGE ( 'NONE', *, *, #82, .T. ) ;
#59 = DIRECTION ( 'NONE',  ( -0.000000000000000000, -0.000000000000000000, 1.000000000000000000 ) ) ;
#60 = ORIENTED_EDGE ( 'NONE', *, *, #115, .F. ) ;
#61 = CARTESIAN_POINT ( 'NONE',  ( -2.299999999999998046, 2.939152317953646613E-16, 0.000000000000000000 ) ) ;
#62 = AXIS2_PLACEMENT_3D ( 'NONE', #288, #260, #289 ) ;
#63 = ORIENTED_EDGE ( 'NONE', *, *, #45, .F. ) ;
#64 = APPROVAL_PERSON_ORGANIZATION ( #176, #74, #338 ) ;
#65 = CONICAL_SURFACE ( 'NONE', #149, 2.499999999999999556, 0.7853981633974503884 ) ;
#66 = PERSON_AND_ORGANIZATION_ROLE ( 'design_owner' ) ;
#67 = ORIENTED_EDGE ( 'NONE', *, *, #346, .T. ) ;
#68 = APPLICATION_PROTOCOL_DEFINITION ( 'international standard', 'config_control_design', 1994, #159 ) ;
#69 = EDGE_LOOP ( 'NONE', ( #58, #249 ) ) ;
#70 = CALENDAR_DATE ( 2025, 1, 2 ) ;
#71 = CIRCLE ( 'NONE', #135, 2.299999999999998046 ) ;
#72 = PERSON_AND_ORGANIZATION ( #1, #262 ) ;
#73 = APPROVAL_DATE_TIME ( #102, #74 ) ;
#74 = APPROVAL ( #42, 'UNSPECIFIED' ) ;
#75 = DIRECTION ( 'NONE',  ( -0.000000000000000000, -0.000000000000000000, -1.000000000000000000 ) ) ;
#76 = AXIS2_PLACEMENT_3D ( 'NONE', #185, #321, #223 ) ;
#77 = LOCAL_TIME ( 21, 17, 1.000000000000000000, #252 ) ;
#78 = CARTESIAN_POINT ( 'NONE',  ( 0.000000000000000000, 0.000000000000000000, 5.799999999999999822 ) ) ;
#79 = DIRECTION ( 'NONE',  ( 0.000000000000000000, 0.000000000000000000, 1.000000000000000000 ) ) ;
#80 = LINE ( 'NONE', #186, #132 ) ;
#81 = FACE_OUTER_BOUND ( 'NONE', #35, .T. ) ;
#82 = EDGE_CURVE ( 'NONE', #13, #247, #71, .T. ) ;
#83 = AXIS2_PLACEMENT_3D ( 'NONE', #78, #291, #19 ) ;
#84 = DIRECTION ( 'NONE',  ( -1.000000000000000000, 0.000000000000000000, 0.000000000000000000 ) ) ;
#85 = FACE_OUTER_BOUND ( 'NONE', #334, .T. ) ;
#86 = EDGE_CURVE ( 'NONE', #323, #10, #151, .T. ) ;
#87 = CARTESIAN_POINT ( 'NONE',  ( 0.000000000000000000, 0.000000000000000000, 0.2000000000000005107 ) ) ;
#88 = ORIENTED_EDGE ( 'NONE', *, *, #86, .T. ) ;
#89 = CARTESIAN_POINT ( 'NONE',  ( 2.299999999999999822, 2.939152317953647106E-16, 6.000000000000000000 ) ) ;
#90 = ORIENTED_EDGE ( 'NONE', *, *, #207, .F. ) ;
#91 = DIRECTION ( 'NONE',  ( 1.000000000000000000, 0.000000000000000000, 0.000000000000000000 ) ) ;
#92 = EDGE_CURVE ( 'NONE', #222, #275, #99, .T. ) ;
#93 = ORIENTED_EDGE ( 'NONE', *, *, #306, .T. ) ;
#94 = AXIS2_PLACEMENT_3D ( 'NONE', #112, #5, #268 ) ;
#95 = ORIENTED_EDGE ( 'NONE', *, *, #160, .T. ) ;
#96 = EDGE_LOOP ( 'NONE', ( #196, #297, #191, #119 ) ) ;
#97 = PERSON_AND_ORGANIZATION_ROLE ( 'creator' ) ;
#98 = PRODUCT ( 'STOIKI-6', 'STOIKI-6', '', ( #123 ) ) ;
#99 = LINE ( 'NONE', #46, #228 ) ;
#100 = PRODUCT_DEFINITION ( 'UNKNOWN', '', #169, #47 ) ;
#101 = DIRECTION ( 'NONE',  ( 1.000000000000000000, 0.000000000000000000, 0.000000000000000000 ) ) ;
#102 = DATE_AND_TIME ( #250, #257 ) ;
#103 = ADVANCED_FACE ( 'NONE', ( #313 ), #52, .F. ) ;
#104 = DIRECTION ( 'NONE',  ( -0.7071067811865460184, 0.000000000000000000, -0.7071067811865489050 ) ) ;
#105 = AXIS2_PLACEMENT_3D ( 'NONE', #166, #53, #84 ) ;
#106 = DIRECTION ( 'NONE',  ( -0.000000000000000000, -0.000000000000000000, -1.000000000000000000 ) ) ;
#107 = FACE_OUTER_BOUND ( 'NONE', #171, .T. ) ;
#108 = UNCERTAINTY_MEASURE_WITH_UNIT (LENGTH_MEASURE( 1.000000000000000082E-05 ), #246, 'distance_accuracy_value', 'NONE');
#109 = EDGE_CURVE ( 'NONE', #222, #144, #266, .T. ) ;
#110 = CARTESIAN_POINT ( 'NONE',  ( -2.299999999999999822, 0.000000000000000000, 6.000000000000000000 ) ) ;
#111 = AXIS2_PLACEMENT_3D ( 'NONE', #286, #79, #238 ) ;
#112 = CARTESIAN_POINT ( 'NONE',  ( 0.000000000000000000, 0.000000000000000000, 6.000000000000000000 ) ) ;
#113 = CC_DESIGN_APPROVAL ( #74, ( #237 ) ) ;
#114 = DIRECTION ( 'NONE',  ( -0.000000000000000000, -0.000000000000000000, 1.000000000000000000 ) ) ;
#115 = EDGE_CURVE ( 'NONE', #247, #218, #261, .T. ) ;
#116 = CARTESIAN_POINT ( 'NONE',  ( 0.000000000000000000, 0.000000000000000000, 6.000000000000000000 ) ) ;
#117 = CIRCLE ( 'NONE', #331, 1.350000000000000089 ) ;
#118 = APPROVAL_PERSON_ORGANIZATION ( #72, #122, #233 ) ;
#119 = ORIENTED_EDGE ( 'NONE', *, *, #245, .F. ) ;
#120 = CARTESIAN_POINT ( 'NONE',  ( 2.499999999999999556, 3.061616997868382648E-16, 6.000000000000000000 ) ) ;
#121 = ORIENTED_EDGE ( 'NONE', *, *, #160, .F. ) ;
#122 = APPROVAL ( #12, 'UNSPECIFIED' ) ;
#123 = MECHANICAL_CONTEXT ( 'NONE', #159, 'mechanical' ) ;
#124 = ORIENTED_EDGE ( 'NONE', *, *, #245, .T. ) ;
#125 = CIRCLE ( 'NONE', #27, 2.499999999999999556 ) ;
#126 = ORIENTED_EDGE ( 'NONE', *, *, #92, .T. ) ;
#127 = CALENDAR_DATE ( 2025, 1, 2 ) ;
#128 = CYLINDRICAL_SURFACE ( 'NONE', #181, 2.499999999999999556 ) ;
#129 = VECTOR ( 'NONE', #163, 1000.000000000000114 ) ;
#130 = CARTESIAN_POINT ( 'NONE',  ( 0.000000000000000000, 0.000000000000000000, 6.000000000000000000 ) ) ;
#131 = DIRECTION ( 'NONE',  ( 1.000000000000000000, 0.000000000000000000, 0.000000000000000000 ) ) ;
#132 = VECTOR ( 'NONE', #292, 1000.000000000000000 ) ;
#133 = CARTESIAN_POINT ( 'NONE',  ( 0.000000000000000000, 0.000000000000000000, 0.000000000000000000 ) ) ;
#134 = DIRECTION ( 'NONE',  ( 1.000000000000000000, 0.000000000000000000, 0.000000000000000000 ) ) ;
#135 = AXIS2_PLACEMENT_3D ( 'NONE', #259, #158, #134 ) ;
#136 = DIRECTION ( 'NONE',  ( 1.000000000000000000, 0.000000000000000000, 0.000000000000000000 ) ) ;
#137 = DIRECTION ( 'NONE',  ( 1.000000000000000000, 0.000000000000000000, 0.000000000000000000 ) ) ;
#138 = VERTEX_POINT ( 'NONE', #21 ) ;
#139 = CARTESIAN_POINT ( 'NONE',  ( 0.000000000000000000, 0.000000000000000000, 0.2000000000000005107 ) ) ;
#140 = AXIS2_PLACEMENT_3D ( 'NONE', #116, #294, #325 ) ;
#141 = LOCAL_TIME ( 21, 17, 1.000000000000000000, #274 ) ;
#142 = ORIENTED_EDGE ( 'NONE', *, *, #267, .T. ) ;
#143 = COORDINATED_UNIVERSAL_TIME_OFFSET ( 2, 0, .AHEAD. ) ;
#144 = VERTEX_POINT ( 'NONE', #110 ) ;
#145 = PERSON_AND_ORGANIZATION ( #1, #262 ) ;
#146 = EDGE_LOOP ( 'NONE', ( #60, #278, #124, #303 ) ) ;
#147 = AXIS2_PLACEMENT_3D ( 'NONE', #221, #244, #300 ) ;
#148 = ORIENTED_EDGE ( 'NONE', *, *, #225, .T. ) ;
#149 = AXIS2_PLACEMENT_3D ( 'NONE', #139, #114, #216 ) ;
#150 = COORDINATED_UNIVERSAL_TIME_OFFSET ( 2, 0, .AHEAD. ) ;
#151 = CIRCLE ( 'NONE', #22, 1.350000000000000089 ) ;
#152 = CC_DESIGN_APPROVAL ( #343, ( #100 ) ) ;
#153 = DIRECTION ( 'NONE',  ( 0.000000000000000000, 0.000000000000000000, 1.000000000000000000 ) ) ;
#154 = DIRECTION ( 'NONE',  ( 1.000000000000000000, 0.000000000000000000, 0.000000000000000000 ) ) ;
#155 = DIRECTION ( 'NONE',  ( -0.000000000000000000, -0.000000000000000000, -1.000000000000000000 ) ) ;
#156 = CC_DESIGN_DATE_AND_TIME_ASSIGNMENT ( #254, #34, ( #100 ) ) ;
#157 = CARTESIAN_POINT ( 'NONE',  ( 1.350000000000000089, 1.653273178848926867E-16, 6.000000000000000000 ) ) ;
#158 = DIRECTION ( 'NONE',  ( -0.000000000000000000, -0.000000000000000000, -1.000000000000000000 ) ) ;
#159 = APPLICATION_CONTEXT ( 'configuration controlled 3d designs of mechanical parts and assemblies' ) ;
#160 = EDGE_CURVE ( 'NONE', #10, #323, #117, .T. ) ;
#161 = PLANE ( 'NONE',  #197 ) ;
#162 = AXIS2_PLACEMENT_3D ( 'NONE', #211, #153, #154 ) ;
#163 = DIRECTION ( 'NONE',  ( 0.7071067811865489050, 0.000000000000000000, 0.7071067811865460184 ) ) ;
#164 = CARTESIAN_POINT ( 'NONE',  ( 0.000000000000000000, 0.000000000000000000, 5.799999999999999822 ) ) ;
#165 = VERTEX_POINT ( 'NONE', #157 ) ;
#166 = CARTESIAN_POINT ( 'NONE',  ( 0.000000000000000000, 0.000000000000000000, 6.000000000000000000 ) ) ;
#167 = ORIENTED_EDGE ( 'NONE', *, *, #284, .T. ) ;
#168 = AXIS2_PLACEMENT_3D ( 'NONE', #187, #59, #137 ) ;
#169 = PRODUCT_DEFINITION_FORMATION_WITH_SPECIFIED_SOURCE ( 'ANY', '', #98, .NOT_KNOWN. ) ;
#170 = EDGE_LOOP ( 'NONE', ( #224, #277 ) ) ;
#171 = EDGE_LOOP ( 'NONE', ( #174, #126, #6, #194 ) ) ;
#172 = EDGE_CURVE ( 'NONE', #299, #323, #236, .T. ) ;
#173 = PERSON_AND_ORGANIZATION ( #1, #262 ) ;
#174 = ORIENTED_EDGE ( 'NONE', *, *, #109, .F. ) ;
#175 = CC_DESIGN_PERSON_AND_ORGANIZATION_ASSIGNMENT ( #145, #307, ( #237 ) ) ;
#176 = PERSON_AND_ORGANIZATION ( #1, #262 ) ;
#177 = CC_DESIGN_APPROVAL ( #122, ( #169 ) ) ;
#178 = PERSON_AND_ORGANIZATION_ROLE ( 'design_supplier' ) ;
#179 = ADVANCED_FACE ( 'NONE', ( #107 ), #55, .T. ) ;
#180 = DIRECTION ( 'NONE',  ( -1.000000000000000000, 0.000000000000000000, 0.000000000000000000 ) ) ;
#181 = AXIS2_PLACEMENT_3D ( 'NONE', #206, #44, #180 ) ;
#182 = FACE_OUTER_BOUND ( 'NONE', #146, .T. ) ;
#183 = ADVANCED_FACE ( 'NONE', ( #81 ), #128, .T. ) ;
#184 = CARTESIAN_POINT ( 'NONE',  ( 2.299999999999998046, 0.000000000000000000, 0.000000000000000000 ) ) ;
#185 = CARTESIAN_POINT ( 'NONE',  ( 0.000000000000000000, 0.000000000000000000, 0.000000000000000000 ) ) ;
#186 = CARTESIAN_POINT ( 'NONE',  ( 1.350000000000000089, 1.653273178848926867E-16, 6.000000000000000000 ) ) ;
#187 = CARTESIAN_POINT ( 'NONE',  ( 0.000000000000000000, 0.000000000000000000, 0.2000000000000005107 ) ) ;
#188 = CARTESIAN_POINT ( 'NONE',  ( -2.499999999999999556, 0.000000000000000000, 0.2000000000000005107 ) ) ;
#189 = AXIS2_PLACEMENT_3D ( 'NONE', #164, #243, #91 ) ;
#190 = FACE_OUTER_BOUND ( 'NONE', #170, .T. ) ;
#191 = ORIENTED_EDGE ( 'NONE', *, *, #306, .F. ) ;
#192 = CC_DESIGN_PERSON_AND_ORGANIZATION_ASSIGNMENT ( #304, #66, ( #98 ) ) ;
#193 = LINE ( 'NONE', #298, #129 ) ;
#194 = ORIENTED_EDGE ( 'NONE', *, *, #36, .F. ) ;
#195 = CARTESIAN_POINT ( 'NONE',  ( -1.350000000000000089, 0.000000000000000000, 6.000000000000000000 ) ) ;
#196 = ORIENTED_EDGE ( 'NONE', *, *, #204, .F. ) ;
#197 = AXIS2_PLACEMENT_3D ( 'NONE', #296, #319, #54 ) ;
#198 = EDGE_LOOP ( 'NONE', ( #199, #90, #226, #255 ) ) ;
#199 = ORIENTED_EDGE ( 'NONE', *, *, #92, .F. ) ;
#200 = CARTESIAN_POINT ( 'NONE',  ( 0.000000000000000000, 0.000000000000000000, 0.000000000000000000 ) ) ;
#201 = CALENDAR_DATE ( 2025, 1, 2 ) ;
#202 = CIRCLE ( 'NONE', #94, 1.350000000000000089 ) ;
#203 = DATE_AND_TIME ( #127, #77 ) ;
#204 = EDGE_CURVE ( 'NONE', #247, #13, #342, .T. ) ;
#205 = DIRECTION ( 'NONE',  ( -1.000000000000000000, 0.000000000000000000, 0.000000000000000000 ) ) ;
#206 = CARTESIAN_POINT ( 'NONE',  ( 0.000000000000000000, 0.000000000000000000, 6.000000000000000000 ) ) ;
#207 = EDGE_CURVE ( 'NONE', #144, #222, #220, .T. ) ;
#208 = DIRECTION ( 'NONE',  ( 0.7071067811865460184, 8.659560562354914369E-17, -0.7071067811865489050 ) ) ;
#209 = FACE_BOUND ( 'NONE', #305, .T. ) ;
#210 = ADVANCED_FACE ( 'NONE', ( #344, #209 ), #315, .F. ) ;
#211 = CARTESIAN_POINT ( 'NONE',  ( 0.000000000000000000, 0.000000000000000000, 6.000000000000000000 ) ) ;
#212 = CONICAL_SURFACE ( 'NONE', #105, 2.299999999999999822, 0.7853981633974461696 ) ;
#213 = APPROVAL_PERSON_ORGANIZATION ( #279, #343, #232 ) ;
#214 = CARTESIAN_POINT ( 'NONE',  ( -1.350000000000000089, 0.000000000000000000, 0.000000000000000000 ) ) ;
#215 = CC_DESIGN_DATE_AND_TIME_ASSIGNMENT ( #309, #256, ( #237 ) ) ;
#216 = DIRECTION ( 'NONE',  ( 1.000000000000000000, 0.000000000000000000, 0.000000000000000000 ) ) ;
#217 = LINE ( 'NONE', #265, #50 ) ;
#218 = VERTEX_POINT ( 'NONE', #188 ) ;
#219 = CC_DESIGN_PERSON_AND_ORGANIZATION_ASSIGNMENT ( #173, #39, ( #100 ) ) ;
#220 = CIRCLE ( 'NONE', #111, 2.299999999999999822 ) ;
#221 = CARTESIAN_POINT ( 'NONE',  ( 0.000000000000000000, 0.000000000000000000, 6.000000000000000000 ) ) ;
#222 = VERTEX_POINT ( 'NONE', #89 ) ;
#223 = DIRECTION ( 'NONE',  ( 1.000000000000000000, 0.000000000000000000, -0.000000000000000000 ) ) ;
#224 = ORIENTED_EDGE ( 'NONE', *, *, #207, .T. ) ;
#225 = EDGE_CURVE ( 'NONE', #165, #299, #202, .T. ) ;
#226 = ORIENTED_EDGE ( 'NONE', *, *, #36, .T. ) ;
#227 = DIRECTION ( 'NONE',  ( 0.000000000000000000, 0.000000000000000000, 1.000000000000000000 ) ) ;
#228 = VECTOR ( 'NONE', #208, 1000.000000000000114 ) ;
#229 = ORIENTED_EDGE ( 'NONE', *, *, #258, .T. ) ;
#230 = PERSON_AND_ORGANIZATION ( #1, #262 ) ;
#231 = DIRECTION ( 'NONE',  ( 1.000000000000000000, 0.000000000000000000, 0.000000000000000000 ) ) ;
#232 = APPROVAL_ROLE ( '' ) ;
#233 = APPROVAL_ROLE ( '' ) ;
#234 = DIRECTION ( 'NONE',  ( 0.000000000000000000, 0.000000000000000000, 1.000000000000000000 ) ) ;
#235 = ADVANCED_FACE ( 'NONE', ( #85 ), #348, .T. ) ;
#236 = LINE ( 'NONE', #341, #273 ) ;
#237 = SECURITY_CLASSIFICATION ( '', '', #14 ) ;
#238 = DIRECTION ( 'NONE',  ( 1.000000000000000000, 0.000000000000000000, 0.000000000000000000 ) ) ;
#239 = CARTESIAN_POINT ( 'NONE',  ( 0.000000000000000000, 0.000000000000000000, 6.000000000000000000 ) ) ;
#240 = ADVANCED_FACE ( 'NONE', ( #190, #32 ), #161, .T. ) ;
#241 = CYLINDRICAL_SURFACE ( 'NONE', #147, 1.350000000000000089 ) ;
#242 = CIRCLE ( 'NONE', #189, 2.499999999999999556 ) ;
#243 = DIRECTION ( 'NONE',  ( 0.000000000000000000, 0.000000000000000000, -1.000000000000000000 ) ) ;
#244 = DIRECTION ( 'NONE',  ( -0.000000000000000000, -0.000000000000000000, -1.000000000000000000 ) ) ;
#245 = EDGE_CURVE ( 'NONE', #13, #138, #193, .T. ) ;
#246 =( LENGTH_UNIT ( ) NAMED_UNIT ( * ) SI_UNIT ( .MILLI., .METRE. ) );
#247 = VERTEX_POINT ( 'NONE', #61 ) ;
#248 = CC_DESIGN_SECURITY_CLASSIFICATION ( #237, ( #169 ) ) ;
#249 = ORIENTED_EDGE ( 'NONE', *, *, #204, .T. ) ;
#250 = CALENDAR_DATE ( 2025, 1, 2 ) ;
#251 = ORIENTED_EDGE ( 'NONE', *, *, #45, .T. ) ;
#252 = COORDINATED_UNIVERSAL_TIME_OFFSET ( 2, 0, .AHEAD. ) ;
#253 = ORIENTED_EDGE ( 'NONE', *, *, #20, .T. ) ;
#254 = DATE_AND_TIME ( #337, #347 ) ;
#255 = ORIENTED_EDGE ( 'NONE', *, *, #327, .F. ) ;
#256 = DATE_TIME_ROLE ( 'classification_date' ) ;
#257 = LOCAL_TIME ( 21, 17, 1.000000000000000000, #150 ) ;
#258 = EDGE_CURVE ( 'NONE', #3, #218, #217, .T. ) ;
#259 = CARTESIAN_POINT ( 'NONE',  ( 0.000000000000000000, 0.000000000000000000, 0.000000000000000000 ) ) ;
#260 = DIRECTION ( 'NONE',  ( -0.000000000000000000, -0.000000000000000000, 1.000000000000000000 ) ) ;
#261 = LINE ( 'NONE', #345, #16 ) ;
#262 = ORGANIZATION ( 'UNSPECIFIED', 'UNSPECIFIED', '' ) ;
#263 = CARTESIAN_POINT ( 'NONE',  ( -2.499999999999999556, 0.000000000000000000, 5.799999999999999822 ) ) ;
#264 = DIRECTION ( 'NONE',  ( 0.000000000000000000, 0.000000000000000000, 1.000000000000000000 ) ) ;
#265 = CARTESIAN_POINT ( 'NONE',  ( -2.499999999999999556, 0.000000000000000000, 6.000000000000000000 ) ) ;
#266 = CIRCLE ( 'NONE', #162, 2.299999999999999822 ) ;
#267 = EDGE_CURVE ( 'NONE', #275, #138, #271, .T. ) ;
#268 = DIRECTION ( 'NONE',  ( 1.000000000000000000, 0.000000000000000000, 0.000000000000000000 ) ) ;
#269 = FACE_OUTER_BOUND ( 'NONE', #96, .T. ) ;
#270 = ORIENTED_EDGE ( 'NONE', *, *, #86, .F. ) ;
#271 = LINE ( 'NONE', #120, #317 ) ;
#272 = ORIENTED_EDGE ( 'NONE', *, *, #346, .F. ) ;
#273 = VECTOR ( 'NONE', #75, 1000.000000000000000 ) ;
#274 = COORDINATED_UNIVERSAL_TIME_OFFSET ( 2, 0, .AHEAD. ) ;
#275 = VERTEX_POINT ( 'NONE', #328 ) ;
#276 = APPROVAL_DATE_TIME ( #335, #343 ) ;
#277 = ORIENTED_EDGE ( 'NONE', *, *, #109, .T. ) ;
#278 = ORIENTED_EDGE ( 'NONE', *, *, #82, .F. ) ;
#279 = PERSON_AND_ORGANIZATION ( #1, #262 ) ;
#280 = ADVANCED_FACE ( 'NONE', ( #57 ), #212, .T. ) ;
#281 = CIRCLE ( 'NONE', #83, 2.499999999999999556 ) ;
#282 = APPROVAL_DATE_TIME ( #203, #122 ) ;
#283 = PRODUCT_RELATED_PRODUCT_CATEGORY ( 'detail', '', ( #98 ) ) ;
#284 = EDGE_CURVE ( 'NONE', #218, #138, #125, .T. ) ;
#285 = APPLICATION_CONTEXT ( 'configuration controlled 3d designs of mechanical parts and assemblies' ) ;
#286 = CARTESIAN_POINT ( 'NONE',  ( 0.000000000000000000, 0.000000000000000000, 6.000000000000000000 ) ) ;
#287 = CIRCLE ( 'NONE', #168, 2.499999999999999556 ) ;
#288 = CARTESIAN_POINT ( 'NONE',  ( 0.000000000000000000, 0.000000000000000000, 0.2000000000000005107 ) ) ;
#289 = DIRECTION ( 'NONE',  ( 1.000000000000000000, 0.000000000000000000, 0.000000000000000000 ) ) ;
#290 = ADVANCED_BREP_SHAPE_REPRESENTATION ( 'STOIKI-6', ( #25, #17 ), #41 ) ;
#291 = DIRECTION ( 'NONE',  ( 0.000000000000000000, 0.000000000000000000, -1.000000000000000000 ) ) ;
#292 = DIRECTION ( 'NONE',  ( -0.000000000000000000, -0.000000000000000000, -1.000000000000000000 ) ) ;
#293 = FACE_OUTER_BOUND ( 'NONE', #8, .T. ) ;
#294 = DIRECTION ( 'NONE',  ( -0.000000000000000000, -0.000000000000000000, -1.000000000000000000 ) ) ;
#295 = VECTOR ( 'NONE', #104, 1000.000000000000114 ) ;
#296 = CARTESIAN_POINT ( 'NONE',  ( 0.000000000000000000, 0.000000000000000000, 6.000000000000000000 ) ) ;
#297 = ORIENTED_EDGE ( 'NONE', *, *, #115, .T. ) ;
#298 = CARTESIAN_POINT ( 'NONE',  ( 2.499999999999999556, 0.000000000000000000, 0.2000000000000005107 ) ) ;
#299 = VERTEX_POINT ( 'NONE', #195 ) ;
#300 = DIRECTION ( 'NONE',  ( -1.000000000000000000, 0.000000000000000000, 0.000000000000000000 ) ) ;
#301 = ORIENTED_EDGE ( 'NONE', *, *, #327, .T. ) ;
#302 = CONICAL_SURFACE ( 'NONE', #62, 2.499999999999999556, 0.7853981633974503884 ) ;
#303 = ORIENTED_EDGE ( 'NONE', *, *, #284, .F. ) ;
#304 = PERSON_AND_ORGANIZATION ( #1, #262 ) ;
#305 = EDGE_LOOP ( 'NONE', ( #88, #95 ) ) ;
#306 = EDGE_CURVE ( 'NONE', #138, #218, #287, .T. ) ;
#307 = PERSON_AND_ORGANIZATION_ROLE ( 'classification_officer' ) ;
#308 = PERSON_AND_ORGANIZATION ( #1, #262 ) ;
#309 = DATE_AND_TIME ( #70, #339 ) ;
#310 = DIRECTION ( 'NONE',  ( 0.000000000000000000, 0.000000000000000000, -1.000000000000000000 ) ) ;
#311 = CARTESIAN_POINT ( 'NONE',  ( 1.350000000000000089, 1.653273178848926867E-16, 0.000000000000000000 ) ) ;
#312 = AXIS2_PLACEMENT_3D ( 'NONE', #130, #310, #340 ) ;
#313 = FACE_OUTER_BOUND ( 'NONE', #330, .T. ) ;
#314 = CC_DESIGN_PERSON_AND_ORGANIZATION_ASSIGNMENT ( #308, #178, ( #169 ) ) ;
#315 = PLANE ( 'NONE',  #76 ) ;
#316 = DIRECTION ( 'NONE',  ( 1.000000000000000000, 0.000000000000000000, 0.000000000000000000 ) ) ;
#317 = VECTOR ( 'NONE', #2, 1000.000000000000000 ) ;
#318 = CIRCLE ( 'NONE', #51, 1.350000000000000089 ) ;
#319 = DIRECTION ( 'NONE',  ( 0.000000000000000000, 0.000000000000000000, 1.000000000000000000 ) ) ;
#320 = ADVANCED_FACE ( 'NONE', ( #293 ), #241, .F. ) ;
#321 = DIRECTION ( 'NONE',  ( 0.000000000000000000, 0.000000000000000000, 1.000000000000000000 ) ) ;
#322 = DIRECTION ( 'NONE',  ( 1.000000000000000000, 0.000000000000000000, 0.000000000000000000 ) ) ;
#323 = VERTEX_POINT ( 'NONE', #214 ) ;
#324 = PRODUCT_DEFINITION_SHAPE ( 'NONE', 'NONE',  #100 ) ;
#325 = DIRECTION ( 'NONE',  ( -1.000000000000000000, 0.000000000000000000, 0.000000000000000000 ) ) ;
#326 = ORIENTED_EDGE ( 'NONE', *, *, #225, .F. ) ;
#327 = EDGE_CURVE ( 'NONE', #275, #3, #242, .T. ) ;
#328 = CARTESIAN_POINT ( 'NONE',  ( 2.499999999999999556, 3.061616997868382648E-16, 5.799999999999999822 ) ) ;
#329 = EDGE_LOOP ( 'NONE', ( #272, #326 ) ) ;
#330 = EDGE_LOOP ( 'NONE', ( #63, #148, #33, #121 ) ) ;
#331 = AXIS2_PLACEMENT_3D ( 'NONE', #18, #264, #316 ) ;
#332 = APPROVAL_STATUS ( 'not_yet_approved' ) ;
#333 = ADVANCED_FACE ( 'NONE', ( #269 ), #65, .T. ) ;
#334 = EDGE_LOOP ( 'NONE', ( #38, #301, #229, #167 ) ) ;
#335 = DATE_AND_TIME ( #201, #141 ) ;
#336 = CARTESIAN_POINT ( 'NONE',  ( 0.000000000000000000, 0.000000000000000000, 0.000000000000000000 ) ) ;
#337 = CALENDAR_DATE ( 2025, 1, 2 ) ;
#338 = APPROVAL_ROLE ( '' ) ;
#339 = LOCAL_TIME ( 21, 17, 1.000000000000000000, #143 ) ;
#340 = DIRECTION ( 'NONE',  ( -1.000000000000000000, 0.000000000000000000, 0.000000000000000000 ) ) ;
#341 = CARTESIAN_POINT ( 'NONE',  ( -1.350000000000000089, 0.000000000000000000, 6.000000000000000000 ) ) ;
#342 = CIRCLE ( 'NONE', #4, 2.299999999999998046 ) ;
#343 = APPROVAL ( #332, 'UNSPECIFIED' ) ;
#344 = FACE_OUTER_BOUND ( 'NONE', #69, .T. ) ;
#345 = CARTESIAN_POINT ( 'NONE',  ( -2.499999999999999556, 3.061616997868382648E-16, 0.2000000000000005107 ) ) ;
#346 = EDGE_CURVE ( 'NONE', #299, #165, #318, .T. ) ;
#347 = LOCAL_TIME ( 21, 17, 1.000000000000000000, #37 ) ;
#348 = CYLINDRICAL_SURFACE ( 'NONE', #140, 2.499999999999999556 ) ;
#349 = DIRECTION ( 'NONE',  ( 0.000000000000000000, 0.000000000000000000, 1.000000000000000000 ) ) ;
ENDSEC;
END-ISO-10303-21;
